"Nice Endings"

 

Who doesn't like a nice ending on the tunes, its like cream on the cake. Here you get some simple way to end your tunes. I show one key but you can probably transpose yourselves to another key easily.

 

A nice ending or a great start it depends on the tune. If you combine this "outro" with
chord theme no 1 it will sounds great. Listen here.

 

Key D major v-1 suites to blues, country or jazz. listen here.

4/4
  Uke
|-------0-----------7----|
|-----0---0---------8----|
|---3-------3-2-0---7----|
|-0-----------------7----|

 

Key G major v-1, suites to softer tunes and classic music. listen here
 4/4
  Uke
|-------0-3-7-8----|
|-----1-------5----|
|---0---------5----|
|-2-----------5----|